ISO-10303-21;
HEADER;
FILE_DESCRIPTION( ( 'STEP AP214' ), '1' );
FILE_NAME( 'p:/temp/worker_3/temp/exporttempdir_1692_355_arHg7/format_0/AGRU_11056005007_Tee_PPR grey_50 - MOP 20 bar (architecture400).stp', '2022-03-10T06:57:21', ( 'License CC BY-ND 4.0' ), ( 'CADENAS' ), ' ', 'PARTsolutions', ' ' );
FILE_SCHEMA( ( 'AUTOMOTIVE_DESIGN { 1 0 10303 214 1 1 1 1 }' ) );
ENDSEC;
DATA;
#1 = MECHANICAL_DESIGN_GEOMETRIC_PRESENTATION_REPRESENTATION( ' ', ( #10, #11, #12, #13, #14, #15, #16, #17, #18, #19, #20, #21, #22 ), #6 );
#2 = PRODUCT_DEFINITION_CONTEXT( '', #23, 'design' );
#3 = APPLICATION_PROTOCOL_DEFINITION( 'international standard', 'automotive_design', 2001, #23 );
#4 = PRODUCT_CATEGORY_RELATIONSHIP( 'NONE', 'NONE', #24, #25 );
#5 = SHAPE_DEFINITION_REPRESENTATION( #26, #27 );
#6 =  ( GEOMETRIC_REPRESENTATION_CONTEXT( 3 )GLOBAL_UNCERTAINTY_ASSIGNED_CONTEXT( ( #30 ) )GLOBAL_UNIT_ASSIGNED_CONTEXT( ( #32, #33, #34 ) )REPRESENTATION_CONTEXT( 'NONE', 'WORKSPACE' ) );
#10 = STYLED_ITEM( '', ( #36 ), #37 );
#11 = STYLED_ITEM( '', ( #38 ), #39 );
#12 = STYLED_ITEM( '', ( #40 ), #41 );
#13 = STYLED_ITEM( '', ( #42 ), #43 );
#14 = STYLED_ITEM( '', ( #44 ), #45 );
#15 = STYLED_ITEM( '', ( #46 ), #47 );
#16 = STYLED_ITEM( '', ( #48 ), #49 );
#17 = STYLED_ITEM( '', ( #50 ), #51 );
#18 = STYLED_ITEM( '', ( #52 ), #53 );
#19 = STYLED_ITEM( '', ( #54 ), #55 );
#20 = STYLED_ITEM( '', ( #56 ), #57 );
#21 = STYLED_ITEM( '', ( #58 ), #59 );
#22 = STYLED_ITEM( '', ( #60 ), #61 );
#23 = APPLICATION_CONTEXT( 'core data for automotive mechanical design processes' );
#24 = PRODUCT_CATEGORY( 'part', 'NONE' );
#25 = PRODUCT_RELATED_PRODUCT_CATEGORY( 'detail', ' ', ( #62 ) );
#26 = PRODUCT_DEFINITION_SHAPE( 'NONE', 'NONE', #63 );
#27 = ADVANCED_BREP_SHAPE_REPRESENTATION( '_AGRU_11056005007_Tee_PPR grey_50 - MOP 20 bar (architecture400)', ( #64, #65 ), #6 );
#30 = UNCERTAINTY_MEASURE_WITH_UNIT( LENGTH_MEASURE( 0.00100000000000000 ), #32, '', '' );
#32 =  ( CONVERSION_BASED_UNIT( 'MILLIMETRE', #68 )LENGTH_UNIT(  )NAMED_UNIT( #71 ) );
#33 =  ( NAMED_UNIT( #73 )PLANE_ANGLE_UNIT(  )SI_UNIT( $, .RADIAN. ) );
#34 =  ( NAMED_UNIT( #73 )SI_UNIT( $, .STERADIAN. )SOLID_ANGLE_UNIT(  ) );
#36 = PRESENTATION_STYLE_ASSIGNMENT( ( #79 ) );
#37 = ADVANCED_FACE( '', ( #80, #81 ), #82, .F. );
#38 = PRESENTATION_STYLE_ASSIGNMENT( ( #83 ) );
#39 = ADVANCED_FACE( '', ( #84, #85 ), #86, .T. );
#40 = PRESENTATION_STYLE_ASSIGNMENT( ( #87 ) );
#41 = ADVANCED_FACE( '', ( #88, #89 ), #90, .T. );
#42 = PRESENTATION_STYLE_ASSIGNMENT( ( #91 ) );
#43 = ADVANCED_FACE( '', ( #92, #93, #94 ), #95, .F. );
#44 = PRESENTATION_STYLE_ASSIGNMENT( ( #96 ) );
#45 = ADVANCED_FACE( '', ( #97, #98, #99 ), #100, .T. );
#46 = PRESENTATION_STYLE_ASSIGNMENT( ( #101 ) );
#47 = ADVANCED_FACE( '', ( #102, #103 ), #104, .F. );
#48 = PRESENTATION_STYLE_ASSIGNMENT( ( #105 ) );
#49 = ADVANCED_FACE( '', ( #106, #107 ), #108, .F. );
#50 = PRESENTATION_STYLE_ASSIGNMENT( ( #109 ) );
#51 = ADVANCED_FACE( '', ( #110, #111 ), #112, .T. );
#52 = PRESENTATION_STYLE_ASSIGNMENT( ( #113 ) );
#53 = ADVANCED_FACE( '', ( #114, #115 ), #116, .T. );
#54 = PRESENTATION_STYLE_ASSIGNMENT( ( #117 ) );
#55 = ADVANCED_FACE( '', ( #118, #119 ), #120, .T. );
#56 = PRESENTATION_STYLE_ASSIGNMENT( ( #121 ) );
#57 = ADVANCED_FACE( '', ( #122, #123 ), #124, .F. );
#58 = PRESENTATION_STYLE_ASSIGNMENT( ( #125 ) );
#59 = ADVANCED_FACE( '', ( #126, #127 ), #128, .F. );
#60 = PRESENTATION_STYLE_ASSIGNMENT( ( #129 ) );
#61 = ADVANCED_FACE( '', ( #130, #131 ), #132, .T. );
#62 = PRODUCT( '_AGRU_11056005007_Tee_PPR grey_50 - MOP 20 bar (architecture400)', '_AGRU_11056005007_Tee_PPR grey_50 - MOP 20 bar (architecture400)', 'PART-_AGRU_11056005007_Tee_PPR grey_50 - MOP 20 bar (architecture400)-DESC', ( #133 ) );
#63 = PRODUCT_DEFINITION( 'NONE', 'NONE', #134, #2 );
#64 = MANIFOLD_SOLID_BREP( '_AGRU_11056005007_Tee_PPR grey_50 - MOP 20 bar (architecture400)', #135 );
#65 = AXIS2_PLACEMENT_3D( '', #136, #137, #138 );
#68 = LENGTH_MEASURE_WITH_UNIT( LENGTH_MEASURE( 1.00000000000000 ), #139 );
#71 = DIMENSIONAL_EXPONENTS( 1.00000000000000, 0.000000000000000, 0.000000000000000, 0.000000000000000, 0.000000000000000, 0.000000000000000, 0.000000000000000 );
#73 = DIMENSIONAL_EXPONENTS( 0.000000000000000, 0.000000000000000, 0.000000000000000, 0.000000000000000, 0.000000000000000, 0.000000000000000, 0.000000000000000 );
#79 = SURFACE_STYLE_USAGE( .BOTH., #140 );
#80 = FACE_BOUND( '', #141, .T. );
#81 = FACE_OUTER_BOUND( '', #142, .T. );
#82 = PLANE( '', #143 );
#83 = SURFACE_STYLE_USAGE( .BOTH., #144 );
#84 = FACE_OUTER_BOUND( '', #145, .T. );
#85 = FACE_OUTER_BOUND( '', #146, .T. );
#86 = CYLINDRICAL_SURFACE( '', #147, 32.5000000000000 );
#87 = SURFACE_STYLE_USAGE( .BOTH., #148 );
#88 = FACE_BOUND( '', #149, .T. );
#89 = FACE_OUTER_BOUND( '', #150, .T. );
#90 = PLANE( '', #151 );
#91 = SURFACE_STYLE_USAGE( .BOTH., #152 );
#92 = FACE_OUTER_BOUND( '', #153, .T. );
#93 = FACE_BOUND( '', #154, .T. );
#94 = FACE_OUTER_BOUND( '', #155, .T. );
#95 = CYLINDRICAL_SURFACE( '', #156, 22.5000000000000 );
#96 = SURFACE_STYLE_USAGE( .BOTH., #157 );
#97 = FACE_OUTER_BOUND( '', #158, .T. );
#98 = FACE_OUTER_BOUND( '', #159, .T. );
#99 = FACE_BOUND( '', #160, .T. );
#100 = CYLINDRICAL_SURFACE( '', #161, 32.5000000000000 );
#101 = SURFACE_STYLE_USAGE( .BOTH., #162 );
#102 = FACE_OUTER_BOUND( '', #163, .T. );
#103 = FACE_OUTER_BOUND( '', #164, .T. );
#104 = CYLINDRICAL_SURFACE( '', #165, 25.0000000000000 );
#105 = SURFACE_STYLE_USAGE( .BOTH., #166 );
#106 = FACE_OUTER_BOUND( '', #167, .T. );
#107 = FACE_OUTER_BOUND( '', #168, .T. );
#108 = CYLINDRICAL_SURFACE( '', #169, 25.0000000000000 );
#109 = SURFACE_STYLE_USAGE( .BOTH., #170 );
#110 = FACE_BOUND( '', #171, .T. );
#111 = FACE_OUTER_BOUND( '', #172, .T. );
#112 = PLANE( '', #173 );
#113 = SURFACE_STYLE_USAGE( .BOTH., #174 );
#114 = FACE_BOUND( '', #175, .T. );
#115 = FACE_OUTER_BOUND( '', #176, .T. );
#116 = PLANE( '', #177 );
#117 = SURFACE_STYLE_USAGE( .BOTH., #178 );
#118 = FACE_BOUND( '', #179, .T. );
#119 = FACE_OUTER_BOUND( '', #180, .T. );
#120 = PLANE( '', #181 );
#121 = SURFACE_STYLE_USAGE( .BOTH., #182 );
#122 = FACE_OUTER_BOUND( '', #183, .T. );
#123 = FACE_OUTER_BOUND( '', #184, .T. );
#124 = CYLINDRICAL_SURFACE( '', #185, 22.5000000000000 );
#125 = SURFACE_STYLE_USAGE( .BOTH., #186 );
#126 = FACE_OUTER_BOUND( '', #187, .T. );
#127 = FACE_OUTER_BOUND( '', #188, .T. );
#128 = CYLINDRICAL_SURFACE( '', #189, 25.0000000000000 );
#129 = SURFACE_STYLE_USAGE( .BOTH., #190 );
#130 = FACE_OUTER_BOUND( '', #191, .T. );
#131 = FACE_BOUND( '', #192, .T. );
#132 = PLANE( '', #193 );
#133 = PRODUCT_CONTEXT( '', #23, 'mechanical' );
#134 = PRODUCT_DEFINITION_FORMATION_WITH_SPECIFIED_SOURCE( ' ', 'NONE', #62, .NOT_KNOWN. );
#135 = CLOSED_SHELL( '', ( #43, #45, #41, #37, #39, #51, #47, #53, #61, #49, #59, #55, #57 ) );
#136 = CARTESIAN_POINT( '', ( 0.000000000000000, 0.000000000000000, 0.000000000000000 ) );
#137 = DIRECTION( '', ( 0.000000000000000, 0.000000000000000, 1.00000000000000 ) );
#138 = DIRECTION( '', ( 1.00000000000000, 0.000000000000000, 0.000000000000000 ) );
#139 =  ( LENGTH_UNIT(  )NAMED_UNIT( #71 )SI_UNIT( .MILLI., .METRE. ) );
#140 = SURFACE_SIDE_STYLE( '', ( #195 ) );
#141 = EDGE_LOOP( '', ( #196 ) );
#142 = EDGE_LOOP( '', ( #197 ) );
#143 = AXIS2_PLACEMENT_3D( '', #198, #199, #200 );
#144 = SURFACE_SIDE_STYLE( '', ( #201 ) );
#145 = EDGE_LOOP( '', ( #202 ) );
#146 = EDGE_LOOP( '', ( #203, #204 ) );
#147 = AXIS2_PLACEMENT_3D( '', #205, #206, #207 );
#148 = SURFACE_SIDE_STYLE( '', ( #208 ) );
#149 = EDGE_LOOP( '', ( #209 ) );
#150 = EDGE_LOOP( '', ( #210 ) );
#151 = AXIS2_PLACEMENT_3D( '', #211, #212, #213 );
#152 = SURFACE_SIDE_STYLE( '', ( #214 ) );
#153 = EDGE_LOOP( '', ( #215 ) );
#154 = EDGE_LOOP( '', ( #216, #217 ) );
#155 = EDGE_LOOP( '', ( #218 ) );
#156 = AXIS2_PLACEMENT_3D( '', #219, #220, #221 );
#157 = SURFACE_SIDE_STYLE( '', ( #222 ) );
#158 = EDGE_LOOP( '', ( #223 ) );
#159 = EDGE_LOOP( '', ( #224 ) );
#160 = EDGE_LOOP( '', ( #225, #226 ) );
#161 = AXIS2_PLACEMENT_3D( '', #227, #228, #229 );
#162 = SURFACE_SIDE_STYLE( '', ( #230 ) );
#163 = EDGE_LOOP( '', ( #231 ) );
#164 = EDGE_LOOP( '', ( #232 ) );
#165 = AXIS2_PLACEMENT_3D( '', #233, #234, #235 );
#166 = SURFACE_SIDE_STYLE( '', ( #236 ) );
#167 = EDGE_LOOP( '', ( #237 ) );
#168 = EDGE_LOOP( '', ( #238 ) );
#169 = AXIS2_PLACEMENT_3D( '', #239, #240, #241 );
#170 = SURFACE_SIDE_STYLE( '', ( #242 ) );
#171 = EDGE_LOOP( '', ( #243 ) );
#172 = EDGE_LOOP( '', ( #244 ) );
#173 = AXIS2_PLACEMENT_3D( '', #245, #246, #247 );
#174 = SURFACE_SIDE_STYLE( '', ( #248 ) );
#175 = EDGE_LOOP( '', ( #249 ) );
#176 = EDGE_LOOP( '', ( #250 ) );
#177 = AXIS2_PLACEMENT_3D( '', #251, #252, #253 );
#178 = SURFACE_SIDE_STYLE( '', ( #254 ) );
#179 = EDGE_LOOP( '', ( #255 ) );
#180 = EDGE_LOOP( '', ( #256 ) );
#181 = AXIS2_PLACEMENT_3D( '', #257, #258, #259 );
#182 = SURFACE_SIDE_STYLE( '', ( #260 ) );
#183 = EDGE_LOOP( '', ( #261, #262 ) );
#184 = EDGE_LOOP( '', ( #263 ) );
#185 = AXIS2_PLACEMENT_3D( '', #264, #265, #266 );
#186 = SURFACE_SIDE_STYLE( '', ( #267 ) );
#187 = EDGE_LOOP( '', ( #268 ) );
#188 = EDGE_LOOP( '', ( #269 ) );
#189 = AXIS2_PLACEMENT_3D( '', #270, #271, #272 );
#190 = SURFACE_SIDE_STYLE( '', ( #273 ) );
#191 = EDGE_LOOP( '', ( #274 ) );
#192 = EDGE_LOOP( '', ( #275 ) );
#193 = AXIS2_PLACEMENT_3D( '', #276, #277, #278 );
#195 = SURFACE_STYLE_FILL_AREA( #279 );
#196 = ORIENTED_EDGE( '', *, *, #280, .T. );
#197 = ORIENTED_EDGE( '', *, *, #281, .F. );
#198 = CARTESIAN_POINT( '', ( -83.0000000000000, 0.000000000000000, 0.000000000000000 ) );
#199 = DIRECTION( '', ( 1.00000000000000, 0.000000000000000, 0.000000000000000 ) );
#200 = DIRECTION( '', ( 0.000000000000000, 0.000000000000000, -1.00000000000000 ) );
#201 = SURFACE_STYLE_FILL_AREA( #282 );
#202 = ORIENTED_EDGE( '', *, *, #283, .F. );
#203 = ORIENTED_EDGE( '', *, *, #284, .T. );
#204 = ORIENTED_EDGE( '', *, *, #285, .T. );
#205 = CARTESIAN_POINT( '', ( -29.2500000000000, 0.000000000000000, 54.0000000000000 ) );
#206 = DIRECTION( '', ( 0.000000000000000, -0.000000000000000, 1.00000000000000 ) );
#207 = DIRECTION( '', ( -1.00000000000000, 0.000000000000000, 0.000000000000000 ) );
#208 = SURFACE_STYLE_FILL_AREA( #286 );
#209 = ORIENTED_EDGE( '', *, *, #287, .F. );
#210 = ORIENTED_EDGE( '', *, *, #288, .T. );
#211 = CARTESIAN_POINT( '', ( 24.5000000000000, 0.000000000000000, 0.000000000000000 ) );
#212 = DIRECTION( '', ( 1.00000000000000, 0.000000000000000, 0.000000000000000 ) );
#213 = DIRECTION( '', ( 0.000000000000000, 0.000000000000000, -1.00000000000000 ) );
#214 = SURFACE_STYLE_FILL_AREA( #289 );
#215 = ORIENTED_EDGE( '', *, *, #290, .T. );
#216 = ORIENTED_EDGE( '', *, *, #291, .T. );
#217 = ORIENTED_EDGE( '', *, *, #292, .T. );
#218 = ORIENTED_EDGE( '', *, *, #293, .F. );
#219 = CARTESIAN_POINT( '', ( 24.5000000000000, 0.000000000000000, 0.000000000000000 ) );
#220 = DIRECTION( '', ( -1.00000000000000, -0.000000000000000, 0.000000000000000 ) );
#221 = DIRECTION( '', ( -0.000000000000000, 0.000000000000000, -1.00000000000000 ) );
#222 = SURFACE_STYLE_FILL_AREA( #294 );
#223 = ORIENTED_EDGE( '', *, *, #281, .T. );
#224 = ORIENTED_EDGE( '', *, *, #288, .F. );
#225 = ORIENTED_EDGE( '', *, *, #285, .F. );
#226 = ORIENTED_EDGE( '', *, *, #284, .F. );
#227 = CARTESIAN_POINT( '', ( 24.5000000000000, 0.000000000000000, 0.000000000000000 ) );
#228 = DIRECTION( '', ( 1.00000000000000, -0.000000000000000, -0.000000000000000 ) );
#229 = DIRECTION( '', ( 0.000000000000000, 0.000000000000000, 1.00000000000000 ) );
#230 = SURFACE_STYLE_FILL_AREA( #295 );
#231 = ORIENTED_EDGE( '', *, *, #296, .T. );
#232 = ORIENTED_EDGE( '', *, *, #280, .F. );
#233 = CARTESIAN_POINT( '', ( 24.5000000000000, 0.000000000000000, 0.000000000000000 ) );
#234 = DIRECTION( '', ( -1.00000000000000, -0.000000000000000, 0.000000000000000 ) );
#235 = DIRECTION( '', ( -0.000000000000000, 0.000000000000000, -1.00000000000000 ) );
#236 = SURFACE_STYLE_FILL_AREA( #297 );
#237 = ORIENTED_EDGE( '', *, *, #287, .T. );
#238 = ORIENTED_EDGE( '', *, *, #298, .F. );
#239 = CARTESIAN_POINT( '', ( 24.5000000000000, 0.000000000000000, 0.000000000000000 ) );
#240 = DIRECTION( '', ( -1.00000000000000, -0.000000000000000, 0.000000000000000 ) );
#241 = DIRECTION( '', ( -0.000000000000000, 0.000000000000000, -1.00000000000000 ) );
#242 = SURFACE_STYLE_FILL_AREA( #299 );
#243 = ORIENTED_EDGE( '', *, *, #300, .T. );
#244 = ORIENTED_EDGE( '', *, *, #283, .T. );
#245 = CARTESIAN_POINT( '', ( -29.2500000000000, 0.000000000000000, 54.0000000000000 ) );
#246 = DIRECTION( '', ( 0.000000000000000, 0.000000000000000, 1.00000000000000 ) );
#247 = DIRECTION( '', ( 1.00000000000000, 0.000000000000000, -0.000000000000000 ) );
#248 = SURFACE_STYLE_FILL_AREA( #301 );
#249 = ORIENTED_EDGE( '', *, *, #293, .T. );
#250 = ORIENTED_EDGE( '', *, *, #296, .F. );
#251 = CARTESIAN_POINT( '', ( -58.5000000000000, 0.000000000000000, 25.0000000000000 ) );
#252 = DIRECTION( '', ( -1.00000000000000, 0.000000000000000, 0.000000000000000 ) );
#253 = DIRECTION( '', ( 0.000000000000000, 0.000000000000000, 1.00000000000000 ) );
#254 = SURFACE_STYLE_FILL_AREA( #302 );
#255 = ORIENTED_EDGE( '', *, *, #303, .T. );
#256 = ORIENTED_EDGE( '', *, *, #304, .F. );
#257 = CARTESIAN_POINT( '', ( -4.25000000000000, 0.000000000000000, 29.5000000000000 ) );
#258 = DIRECTION( '', ( 0.000000000000000, 0.000000000000000, 1.00000000000000 ) );
#259 = DIRECTION( '', ( 1.00000000000000, 0.000000000000000, -0.000000000000000 ) );
#260 = SURFACE_STYLE_FILL_AREA( #305 );
#261 = ORIENTED_EDGE( '', *, *, #291, .F. );
#262 = ORIENTED_EDGE( '', *, *, #292, .F. );
#263 = ORIENTED_EDGE( '', *, *, #303, .F. );
#264 = CARTESIAN_POINT( '', ( -29.2500000000000, 0.000000000000000, 0.000000000000000 ) );
#265 = DIRECTION( '', ( 0.000000000000000, -0.000000000000000, 1.00000000000000 ) );
#266 = DIRECTION( '', ( -1.00000000000000, 0.000000000000000, 0.000000000000000 ) );
#267 = SURFACE_STYLE_FILL_AREA( #306 );
#268 = ORIENTED_EDGE( '', *, *, #304, .T. );
#269 = ORIENTED_EDGE( '', *, *, #300, .F. );
#270 = CARTESIAN_POINT( '', ( -29.2500000000000, 0.000000000000000, 0.000000000000000 ) );
#271 = DIRECTION( '', ( 0.000000000000000, -0.000000000000000, 1.00000000000000 ) );
#272 = DIRECTION( '', ( -1.00000000000000, 0.000000000000000, 0.000000000000000 ) );
#273 = SURFACE_STYLE_FILL_AREA( #307 );
#274 = ORIENTED_EDGE( '', *, *, #298, .T. );
#275 = ORIENTED_EDGE( '', *, *, #290, .F. );
#276 = CARTESIAN_POINT( '', ( 0.000000000000000, 0.000000000000000, 22.5000000000000 ) );
#277 = DIRECTION( '', ( 1.00000000000000, 0.000000000000000, -0.000000000000000 ) );
#278 = DIRECTION( '', ( -0.000000000000000, 0.000000000000000, -1.00000000000000 ) );
#279 = FILL_AREA_STYLE( '', ( #308 ) );
#280 = EDGE_CURVE( '', #309, #309, #310, .T. );
#281 = EDGE_CURVE( '', #311, #311, #312, .T. );
#282 = FILL_AREA_STYLE( '', ( #313 ) );
#283 = EDGE_CURVE( '', #314, #314, #315, .T. );
#284 = EDGE_CURVE( '', #316, #317, #318, .T. );
#285 = EDGE_CURVE( '', #317, #316, #319, .F. );
#286 = FILL_AREA_STYLE( '', ( #320 ) );
#287 = EDGE_CURVE( '', #321, #321, #322, .T. );
#288 = EDGE_CURVE( '', #323, #323, #324, .T. );
#289 = FILL_AREA_STYLE( '', ( #325 ) );
#290 = EDGE_CURVE( '', #326, #326, #327, .T. );
#291 = EDGE_CURVE( '', #328, #329, #330, .F. );
#292 = EDGE_CURVE( '', #329, #328, #331, .T. );
#293 = EDGE_CURVE( '', #332, #332, #333, .T. );
#294 = FILL_AREA_STYLE( '', ( #334 ) );
#295 = FILL_AREA_STYLE( '', ( #335 ) );
#296 = EDGE_CURVE( '', #336, #336, #337, .T. );
#297 = FILL_AREA_STYLE( '', ( #338 ) );
#298 = EDGE_CURVE( '', #339, #339, #340, .T. );
#299 = FILL_AREA_STYLE( '', ( #341 ) );
#300 = EDGE_CURVE( '', #342, #342, #343, .T. );
#301 = FILL_AREA_STYLE( '', ( #344 ) );
#302 = FILL_AREA_STYLE( '', ( #345 ) );
#303 = EDGE_CURVE( '', #346, #346, #347, .T. );
#304 = EDGE_CURVE( '', #348, #348, #349, .T. );
#305 = FILL_AREA_STYLE( '', ( #350 ) );
#306 = FILL_AREA_STYLE( '', ( #351 ) );
#307 = FILL_AREA_STYLE( '', ( #352 ) );
#308 = FILL_AREA_STYLE_COLOUR( '', #353 );
#309 = VERTEX_POINT( '', #354 );
#310 = CIRCLE( '', #355, 25.0000000000000 );
#311 = VERTEX_POINT( '', #356 );
#312 = CIRCLE( '', #357, 32.5000000000000 );
#313 = FILL_AREA_STYLE_COLOUR( '', #358 );
#314 = VERTEX_POINT( '', #359 );
#315 = CIRCLE( '', #360, 32.5000000000000 );
#316 = VERTEX_POINT( '', #361 );
#317 = VERTEX_POINT( '', #362 );
#318 = ELLIPSE( '', #363, 45.9619407771000, 32.5000000000000 );
#319 = ELLIPSE( '', #364, 45.9619407771000, 32.5000000000000 );
#320 = FILL_AREA_STYLE_COLOUR( '', #365 );
#321 = VERTEX_POINT( '', #366 );
#322 = CIRCLE( '', #367, 25.0000000000000 );
#323 = VERTEX_POINT( '', #368 );
#324 = CIRCLE( '', #369, 32.5000000000000 );
#325 = FILL_AREA_STYLE_COLOUR( '', #370 );
#326 = VERTEX_POINT( '', #371 );
#327 = CIRCLE( '', #372, 22.5000000000000 );
#328 = VERTEX_POINT( '', #373 );
#329 = VERTEX_POINT( '', #374 );
#330 = ELLIPSE( '', #375, 31.8198051534000, 22.5000000000000 );
#331 = ELLIPSE( '', #376, 31.8198051534000, 22.5000000000000 );
#332 = VERTEX_POINT( '', #377 );
#333 = CIRCLE( '', #378, 22.5000000000000 );
#334 = FILL_AREA_STYLE_COLOUR( '', #379 );
#335 = FILL_AREA_STYLE_COLOUR( '', #380 );
#336 = VERTEX_POINT( '', #381 );
#337 = CIRCLE( '', #382, 25.0000000000000 );
#338 = FILL_AREA_STYLE_COLOUR( '', #383 );
#339 = VERTEX_POINT( '', #384 );
#340 = CIRCLE( '', #385, 25.0000000000000 );
#341 = FILL_AREA_STYLE_COLOUR( '', #386 );
#342 = VERTEX_POINT( '', #387 );
#343 = CIRCLE( '', #388, 25.0000000000000 );
#344 = FILL_AREA_STYLE_COLOUR( '', #389 );
#345 = FILL_AREA_STYLE_COLOUR( '', #390 );
#346 = VERTEX_POINT( '', #391 );
#347 = CIRCLE( '', #392, 22.5000000000000 );
#348 = VERTEX_POINT( '', #393 );
#349 = CIRCLE( '', #394, 25.0000000000000 );
#350 = FILL_AREA_STYLE_COLOUR( '', #395 );
#351 = FILL_AREA_STYLE_COLOUR( '', #396 );
#352 = FILL_AREA_STYLE_COLOUR( '', #397 );
#353 = COLOUR_RGB( '', 0.713725507300000, 0.709803938900000, 0.650980413000000 );
#354 = CARTESIAN_POINT( '', ( -83.0000000000000, 0.000000000000000, -25.0000000000000 ) );
#355 = AXIS2_PLACEMENT_3D( '', #398, #399, #400 );
#356 = CARTESIAN_POINT( '', ( -83.0000000000000, 32.5000000000000, 0.000000000000000 ) );
#357 = AXIS2_PLACEMENT_3D( '', #401, #402, #403 );
#358 = COLOUR_RGB( '', 0.713725507300000, 0.709803938900000, 0.650980413000000 );
#359 = CARTESIAN_POINT( '', ( 3.25000000000000, 0.000000000000000, 54.0000000000000 ) );
#360 = AXIS2_PLACEMENT_3D( '', #404, #405, #406 );
#361 = CARTESIAN_POINT( '', ( -29.2500000000000, -32.5000000000000, 0.000000000000000 ) );
#362 = CARTESIAN_POINT( '', ( -29.2500000000000, 32.5000000000000, 0.000000000000000 ) );
#363 = AXIS2_PLACEMENT_3D( '', #407, #408, #409 );
#364 = AXIS2_PLACEMENT_3D( '', #410, #411, #412 );
#365 = COLOUR_RGB( '', 0.713725507300000, 0.709803938900000, 0.650980413000000 );
#366 = CARTESIAN_POINT( '', ( 24.5000000000000, 0.000000000000000, -25.0000000000000 ) );
#367 = AXIS2_PLACEMENT_3D( '', #413, #414, #415 );
#368 = CARTESIAN_POINT( '', ( 24.5000000000000, 32.5000000000000, 0.000000000000000 ) );
#369 = AXIS2_PLACEMENT_3D( '', #416, #417, #418 );
#370 = COLOUR_RGB( '', 0.713725507300000, 0.709803938900000, 0.650980413000000 );
#371 = CARTESIAN_POINT( '', ( 0.000000000000000, 0.000000000000000, -22.5000000000000 ) );
#372 = AXIS2_PLACEMENT_3D( '', #419, #420, #421 );
#373 = CARTESIAN_POINT( '', ( -29.2500000000000, -22.5000000000000, 1.73472347597681E-15 ) );
#374 = CARTESIAN_POINT( '', ( -29.2500000000000, 22.5000000000000, 3.46944695195361E-15 ) );
#375 = AXIS2_PLACEMENT_3D( '', #422, #423, #424 );
#376 = AXIS2_PLACEMENT_3D( '', #425, #426, #427 );
#377 = CARTESIAN_POINT( '', ( -58.5000000000000, 0.000000000000000, -22.5000000000000 ) );
#378 = AXIS2_PLACEMENT_3D( '', #428, #429, #430 );
#379 = COLOUR_RGB( '', 0.713725507300000, 0.709803938900000, 0.650980413000000 );
#380 = COLOUR_RGB( '', 0.713725507300000, 0.709803938900000, 0.650980413000000 );
#381 = CARTESIAN_POINT( '', ( -58.5000000000000, 0.000000000000000, -25.0000000000000 ) );
#382 = AXIS2_PLACEMENT_3D( '', #431, #432, #433 );
#383 = COLOUR_RGB( '', 0.713725507300000, 0.709803938900000, 0.650980413000000 );
#384 = CARTESIAN_POINT( '', ( 0.000000000000000, 0.000000000000000, -25.0000000000000 ) );
#385 = AXIS2_PLACEMENT_3D( '', #434, #435, #436 );
#386 = COLOUR_RGB( '', 0.713725507300000, 0.709803938900000, 0.650980413000000 );
#387 = CARTESIAN_POINT( '', ( -54.2500000000000, 0.000000000000000, 54.0000000000000 ) );
#388 = AXIS2_PLACEMENT_3D( '', #437, #438, #439 );
#389 = COLOUR_RGB( '', 0.713725507300000, 0.709803938900000, 0.650980413000000 );
#390 = COLOUR_RGB( '', 0.713725507300000, 0.709803938900000, 0.650980413000000 );
#391 = CARTESIAN_POINT( '', ( -51.7500000000000, 0.000000000000000, 29.5000000000000 ) );
#392 = AXIS2_PLACEMENT_3D( '', #440, #441, #442 );
#393 = CARTESIAN_POINT( '', ( -54.2500000000000, 0.000000000000000, 29.5000000000000 ) );
#394 = AXIS2_PLACEMENT_3D( '', #443, #444, #445 );
#395 = COLOUR_RGB( '', 0.713725507300000, 0.709803938900000, 0.650980413000000 );
#396 = COLOUR_RGB( '', 0.713725507300000, 0.709803938900000, 0.650980413000000 );
#397 = COLOUR_RGB( '', 0.713725507300000, 0.709803938900000, 0.650980413000000 );
#398 = CARTESIAN_POINT( '', ( -83.0000000000000, 0.000000000000000, 0.000000000000000 ) );
#399 = DIRECTION( '', ( 1.00000000000000, 0.000000000000000, -0.000000000000000 ) );
#400 = DIRECTION( '', ( -0.000000000000000, 0.000000000000000, -1.00000000000000 ) );
#401 = CARTESIAN_POINT( '', ( -83.0000000000000, 0.000000000000000, 0.000000000000000 ) );
#402 = DIRECTION( '', ( 1.00000000000000, 0.000000000000000, 0.000000000000000 ) );
#403 = DIRECTION( '', ( 0.000000000000000, 1.00000000000000, 0.000000000000000 ) );
#404 = CARTESIAN_POINT( '', ( -29.2500000000000, 0.000000000000000, 54.0000000000000 ) );
#405 = DIRECTION( '', ( 0.000000000000000, 0.000000000000000, 1.00000000000000 ) );
#406 = DIRECTION( '', ( 1.00000000000000, 0.000000000000000, 0.000000000000000 ) );
#407 = CARTESIAN_POINT( '', ( -29.2500000000000, 0.000000000000000, 0.000000000000000 ) );
#408 = DIRECTION( '', ( -0.707106781186548, 0.000000000000000, 0.707106781186548 ) );
#409 = DIRECTION( '', ( -0.707106781186548, -0.000000000000000, -0.707106781186548 ) );
#410 = CARTESIAN_POINT( '', ( -29.2500000000000, 0.000000000000000, 0.000000000000000 ) );
#411 = DIRECTION( '', ( -0.707106781186548, 0.000000000000000, -0.707106781186548 ) );
#412 = DIRECTION( '', ( -0.707106781186548, 0.000000000000000, 0.707106781186548 ) );
#413 = CARTESIAN_POINT( '', ( 24.5000000000000, 0.000000000000000, 0.000000000000000 ) );
#414 = DIRECTION( '', ( 1.00000000000000, 0.000000000000000, -0.000000000000000 ) );
#415 = DIRECTION( '', ( -0.000000000000000, 0.000000000000000, -1.00000000000000 ) );
#416 = CARTESIAN_POINT( '', ( 24.5000000000000, 0.000000000000000, 0.000000000000000 ) );
#417 = DIRECTION( '', ( 1.00000000000000, 0.000000000000000, 0.000000000000000 ) );
#418 = DIRECTION( '', ( 0.000000000000000, 1.00000000000000, 0.000000000000000 ) );
#419 = CARTESIAN_POINT( '', ( 0.000000000000000, 0.000000000000000, 0.000000000000000 ) );
#420 = DIRECTION( '', ( 1.00000000000000, 0.000000000000000, -0.000000000000000 ) );
#421 = DIRECTION( '', ( -0.000000000000000, 0.000000000000000, -1.00000000000000 ) );
#422 = CARTESIAN_POINT( '', ( -29.2500000000000, 0.000000000000000, 0.000000000000000 ) );
#423 = DIRECTION( '', ( 0.707106781186548, 0.000000000000000, -0.707106781186548 ) );
#424 = DIRECTION( '', ( 0.707106781186548, 0.000000000000000, 0.707106781186548 ) );
#425 = CARTESIAN_POINT( '', ( -29.2500000000000, 0.000000000000000, 0.000000000000000 ) );
#426 = DIRECTION( '', ( 0.707106781186548, 0.000000000000000, 0.707106781186548 ) );
#427 = DIRECTION( '', ( 0.707106781186548, -0.000000000000000, -0.707106781186548 ) );
#428 = CARTESIAN_POINT( '', ( -58.5000000000000, 0.000000000000000, 0.000000000000000 ) );
#429 = DIRECTION( '', ( 1.00000000000000, 0.000000000000000, -0.000000000000000 ) );
#430 = DIRECTION( '', ( -0.000000000000000, 0.000000000000000, -1.00000000000000 ) );
#431 = CARTESIAN_POINT( '', ( -58.5000000000000, 0.000000000000000, 0.000000000000000 ) );
#432 = DIRECTION( '', ( 1.00000000000000, 0.000000000000000, -0.000000000000000 ) );
#433 = DIRECTION( '', ( -0.000000000000000, 0.000000000000000, -1.00000000000000 ) );
#434 = CARTESIAN_POINT( '', ( 0.000000000000000, 0.000000000000000, 0.000000000000000 ) );
#435 = DIRECTION( '', ( 1.00000000000000, 0.000000000000000, -0.000000000000000 ) );
#436 = DIRECTION( '', ( -0.000000000000000, 0.000000000000000, -1.00000000000000 ) );
#437 = CARTESIAN_POINT( '', ( -29.2500000000000, 0.000000000000000, 54.0000000000000 ) );
#438 = DIRECTION( '', ( -0.000000000000000, 0.000000000000000, -1.00000000000000 ) );
#439 = DIRECTION( '', ( -1.00000000000000, 0.000000000000000, 0.000000000000000 ) );
#440 = CARTESIAN_POINT( '', ( -29.2500000000000, 0.000000000000000, 29.5000000000000 ) );
#441 = DIRECTION( '', ( -0.000000000000000, 0.000000000000000, -1.00000000000000 ) );
#442 = DIRECTION( '', ( -1.00000000000000, 0.000000000000000, 0.000000000000000 ) );
#443 = CARTESIAN_POINT( '', ( -29.2500000000000, 0.000000000000000, 29.5000000000000 ) );
#444 = DIRECTION( '', ( -0.000000000000000, 0.000000000000000, -1.00000000000000 ) );
#445 = DIRECTION( '', ( -1.00000000000000, 0.000000000000000, 0.000000000000000 ) );
ENDSEC;
END-ISO-10303-21;
